Skostørrelse usa?

En tråd i '2010' startet av Grete71, 21 Jul 2010.

Endre kallenavn | Kom i gang/Hjelp | Last ned vår BV-forum app
  1. Grete71 Forumet er livet

    Dere som kjøper på ebay (ja måtte inn og titte.....)

    Hvilken størrelse kjøper dere? 2? Ca 17 i norsk målestokk? Husker ikke hvor stort 17 er... Eller lite... [8D]
  2. Ellie86 Elsker forumet

    jeg kjøper 2 og 3 til snuppa på. hun har små bein så 3 er nok ikke passe før om noen måneder.
    16/17 er ganske stort. hvis du drar på hm en dag så står det både 16/17 og str 3 på samme skoen. da kan du se hvor stor den er.
  3. Cathrine_86 Gift med forumet

    Her er 2 forskjellige oversikter! [:)]

    OVERSETTELSE AV SKO STR TIL BARN (amerik til norsk....) :


    0 = ca 15
    1 = ca 16
    2 = ca 17/18
    3 = ca 18/19
    4 = ca 20
    5 = ca 21
    6 = ca 22
    7 = ca 23/24
    8 = ca 25/26
    9 = ca 26/27
    10 = ca 28/29
    11 = ca 29/30
    12 = ca 30/31
    13 = ca 31/32

    og så fortsetter vi på :

    1 = ca 33
    1 1/2 - 2 = ca 34/35
    2 1/2 - 3 = ca 35/36
    3 1/2 - 4 = ca 36/37
    4 1/2 - 5 = ca 38
    5 1/2 - 6 = ca 38/39



    Size ----------- Age -------------- Euro

    01 ------------- 0-3------------- 16/17
    02 ------------- 3-6------------- 18
    03 ------------- 6-9------------- 19
    04 ------------- 9-12------------ 20
    05 ------------- 12-18----------- 21
    06 ------------- 18-24----------- 22

    07 ------------- 2 år ------------- 23
    08 ------------- 2-3------------- 24
    09 ------------- 3-4------------- 25
    10 ------------- 3-4------------- 26
    11 ------------- 4-5------------- 27
    12 ------------- 4-5------------- 28
    13 ------------- 5-6------------- 30

    [:)]
  4. Grete71 Forumet er livet

    ORIGINAL: Cathrine_86

    Her er 2 forskjellige oversikter! [:)]

    OVERSETTELSE AV SKO STR TIL BARN (amerik til norsk....) :


    0 = ca 15
    1 = ca 16
    2 = ca 17/18
    3 = ca 18/19
    4 = ca 20
    5 = ca 21
    6 = ca 22
    7 = ca 23/24
    8 = ca 25/26
    9 = ca 26/27
    10 = ca 28/29
    11 = ca 29/30
    12 = ca 30/31
    13 = ca 31/32

    og så fortsetter vi på :

    1 = ca 33
    1 1/2 - 2 = ca 34/35
    2 1/2 - 3 = ca 35/36
    3 1/2 - 4 = ca 36/37
    4 1/2 - 5 = ca 38
    5 1/2 - 6 = ca 38/39



    Size ----------- Age -------------- Euro

    01 ------------- 0-3------------- 16/17
    02 ------------- 3-6------------- 18
    03 ------------- 6-9------------- 19
    04 ------------- 9-12------------ 20
    05 ------------- 12-18----------- 21
    06 ------------- 18-24----------- 22

    07 ------------- 2 år ------------- 23
    08 ------------- 2-3------------- 24
    09 ------------- 3-4------------- 25
    10 ------------- 3-4------------- 26
    11 ------------- 4-5------------- 27
    12 ------------- 4-5------------- 28
    13 ------------- 5-6------------- 30

    [:)]


    Og da må age være mnd'er. Tusen takk! [:D]
  5. MariaR83 Gift med forumet

    ORIGINAL: Rufsesara

    Generelt tips når dere skal kjøpe sko til de små er å ta ut såla for å se. I noen sko(skofus tror jeg), har de ei sånn linje foten skal gå innafor. Har de ikke det, bør du få pekefingeren på tvers foran tåa når helen er helt bakerst på såla [;)]
    Mange som ikke er klar over dette og faktisk kjøper for små sko[:)]

    Dette er helt riktig! Men bare husk at skostørrelser på barn er like individuelt som skostørrelser på voksne! Så kjøp heller litt for store enn akkurat passe! Barn vokser fryktelig fort så hvis en sko passer en mnd, kan den være for liten neste mnd [;)] (jeg har vokst opp i familiebedrift -skobutikk, og jobbet maaaange år med sko [;)])

Del denne siden